BACK ON THE BORDERLINE

James/Garrett/Hirst
Album : Head Injuries
Bass : Andrew James

Transcribed by B.Camp

INTRO:
G |---------------------------------|
D |---------------------------------|
A |-0-2-2-2-0-2-2-2-0-2-2-2-2-2-2-2-|
E |---------------------------------|

G |---------------------------------|
D |-7-7-7-----------5-5-5-----------|
A |-------7---7-7-7-------5---5-5-5-|
E |---------------------------------|

VERSE:
G |---------------------------------|---------------------------------|
D |-----------------5-5-5-----------|-7-7-7-----------5-5-5-----------|
A |---0-4-7---7-7-7-------5---5-5-5-|-------7---7-7-7-------5---5-5-5-|
E |-3-------------------------------|---------------------------------|

BRIDGE:
G |---------------------------------|---------------------------------|
D |---------------------------------|---------------------------------|
A |---------------------------------|---------------------------------|
E |-1---1-1---1-1---1-1---1-0---0-0-|-5---5-5---1---1-1---1-1---1-1---|

G |---------------------------------|---------------------------------|
D |---------------2---2-2-----------|---------------------------------|
A |-0-2---2-2---2-------------------|---------------------------------|
E |-----------------------------2-2-|-2-2-2-2-2-0-2-2-----2-2-2-------|

CHORUS:
G |---------------------------------|---------------------------------|
D |---------------------------------|---------------------------------|
A |-2-2-2-2-2-2-2-2-2-2-2-2-2-2-2-2-|---------------------------------|
E |---------------------------------|-0-0-0-0-0-0-0-0-5-5---5-2-2-2-2-|

AFTER CHORUS/BEFORE 2nd VERSE:
G |---------------------------------|---------------------------------|
D |-7-7-7-----------5-5-5-----------|-7-7-7-6---6-6-6-7-6-4-----------|
A |-------7---7-7-7-------5---5-5-5-|-----------------------7---7-7-7-|
E |---------------------------------|---------------------------------|

BRIDGE 2:
G |---------------------------------|---------------------------------|
D |---------------------------------|---------------------------------|
A |-------------------------------3-|-2-------------------------------|
E |-1---1-1---1-1---1-1---1-0--0-0--|--5---5-5---5-1---1-1---1-1---1-1|

G |---------------------------------|---------------------------------|
D |-----------------------------4-4-|-5-5-5-5-5-5-5-5-5-5-5-5-5-5-5-5-|
A |-0-2---2-2--2/5h-----------------|---------------------------------|
E |----------------7-0-0-0-0-0-0----|---------------------------------|

G |---------------------------------|---------------------------------|
D |-4-4-4-4-4-4-4-4-----------------|-5-5-5-5-5-5-5-5-5-5-5-5-5-5-5-5-|
A |-----------------2-2-2-2-2-2-2-2-|---------------------------------|
E |---------------------------------|---------------------------------|

G |---------------------------------|
D |---------------------------------|
A |4-4-4-4-4-4-4-4------------------|
E |----------------0-2-2---2-2-2----|

INTERLUDE & HEAVY GUITAR LINES:
G |---------------------------------|---------------------------------|
D |---------------------------------|---------------------------------|
A |-2-2-2-2---2-2-2-2-2-2-2---2-2-2-|---------------------------------| x2
E |---------------------------------|-0-0-0-0---0-0-0-5-5-5-5--2-2-2--|

G |---------------------------------|-----------------2-2-2-2---------|
D |---------------------------------|-2-2-2-2---2-2-2----------4-4-4--|
A |-2-2-2-2---2-2-2-2-2-2-2---2-2-2-|---------------------------------|
E |---------------------------------|---------------------------------|

G |---------------------------------|---------------------------------|
D |---------------------------------|---------------------------------|
A |-2-2-2-2-2-2-2-2-2-2-2-2-2-2-2-2-|---------------------------------|
E |---------------------------------|-0-0-0-0-0-0-0-0-5-5-5-5-2-2-2-2-|

G |---------------------------------|-----------------2-2-2-2---------|
D |---------------------------------|-2-2-2-2-2-2-2-2---------4-4-4-4-|
A |-2-2-2-2-2-2-2-2-2-2-2-2-2-2-2-2-|---------------------------------|
E |---------------------------------|---------------------------------|

CHORUS/END PARTS:
G |---------------------------------|---------------------------------|
D |---------------------------------|---------------------------------|
A |-2-2-2-2-2-2-2-2-2-2-2-2-2-2-2-2-|---------------------------------| x2
E |---------------------------------|-0-0-0-0-0-0-0-0-5-5-5-5-2-2-2-2-|

G |---------------------------------|-----------------2-2-2-2---------|
D |-------------------------2-2-2-2-|-2-2-2-2-2-2-2-2---------4-4-4-4-|
A |-2-2-2-2-2-2-2-2-4-4-4-4---------|---------------------------------|
E |---------------------------------|---------------------------------|

G |---------------------------------|---------------------------------|
D |-------------------------2-2-2-2-|-2-2-2-2-2-2-2-2-----------------|
A |-2-2-2-2-2-2-2-2-4-4-4-4---------|---------------------------------|
E |---------------------------------|-----------------5-5-5-5-2-2-2-2-|

G |---------------------------------|---------------------------------|
D |---------------------------------|---------------------------------|
A |---------------------------------|-----------------2-2-2-2-2-2-2-2-|
E |-3-3-3-3-3-3-3-3-3-3-3-3-3-3-3-3-|-2-2-2-2-2-2-2-2-----------------|

G |---------------------------------|---|
D |-5-5-5-5-5-5-5-5-4-4-4-4-4-4-4-4-|---|
A |---------------------------------|-2-|
E |---------------------------------|---|