KOALA SPRINT

Garrett/Moginie/Rotsey
Album : Head Injuries
Bass : Andrew James

Transcribed by B.Camp

INTRO:
Solo

G |---------------------------------|---------------------------------|
D |---------------------------------|---------------------------------|
A |---------------------------------|---------------------------------|
E |-5-5-5-5-5-5-5-5-5-5-5-5-5-5-5-5-|-6-6-6-6-6-6-6-6-6-6-6-6-6-6-6-6-|

Drums join
G |----------------------------------|----------------------------------|
D |*---------------------------------|---------------------------------*|
A |*---------------------------------|-----------------5-5-5-5-5-5-5-5-*|
E |--5-5-5-5-5-5-5-5-5-5-5-5-5-5-5-5-|-6-6-6-6-6-6-6-6------------------|

G |---------------------------------|---------------------------------|
D |---------------------------------|---------------------------------|
A |---------------------------------|---------------------------------|
E |---------------------------------|---------------------------------|

G |---------------------------------|---------------------------------|
D |---------------------------------|---------------------------------|
A |---------------------------------|---------------------------------|
E |---------------------------------|---------------------------5-5---|

G |----------------------------------|----------------------------------|
D |*---------------------------------|---------------------------------*|
A |*---------------------------------|-----------------5-5-5-5-5-5-5-5-*| x3
E |--5-5-5-5-5-5-5-5-5-5-5-5-5-5-5-5-|-6-6-6-6-6-6-6-6------------------|

G |---------------------------------|---------------------------------|
D |---------------------------------|---------------------------------|
A |---------------------------------|-----------------5-5-5-5-5-5-5---|
E |-5-5-5-5-5-5-5-5-5-5-5-5-5-5-5-5-|-6-6-6-6-6-6-6-6-----------------|

BRIDGE:
G |---------------------------------|---------------------------------|
D |-5---3---2-----------------------|-5---3---2-------3-2-------------|
A |-------------3-----5---0-5-------|-------------3-------3-----------|
E |---------------------------------|-----------------------1---------|

G |---------------------------------|---------------------------------|
D |-5---3---2-----------------------|-5---3---2-------3-2-------------|
A |-------------3-----5---0-5-------|-------------3-------3-----------|
E |---------------------------------|-----------------------1-----1---|

VERSE:(Walking style)
G |-----------------------------------|````|-----------------|
D |*---------------------------------*|
````|-----------------|
A |*---------------------------------*| x4 |-3-3-3---2-2-2---|
E |--3---5---6---3---5---6---3---5----|
````|-----------------|

G |----------------------------------|----------------------------------|
D |*---------------------------------|---------------------------------*|
A |*-----5---7-------5---7-------5---|-----5---7-------5---7-----------*|
E |--7-----------7-----------7-------|-7-----------7-----------7-7-7----|

G |---------------------------------|---------------------------------|
D |-5---3---2-----------------------|-5---3---2-------3-2-------------|
A |-------------3-----5---0-5-------|-------------3-------3-----0-3-4-|
E |---------------------------------|-----------------------1---------|

CHORUS:
G |---------------------------------|---------------------------------|
D |-----------------7-7-7-7---7-7-7-|---------------------------------|
A |-5-5-5-5-5-5-5-5-----------------|-5-5-5-5-5-5-5-5---------------2-|
E |---------------------------------|-----------------5-5-5-5---5-5---|

G |---------------------------------|---------------------------------|
D |---------------------------------|---------------------------------|
A |-3-3-3-3-3-3-3-2-----------------|---------------------------------|
E |-----------------5-5-5-5-5-5-5-5-|-1-1-1-1-1-1-1-1-0-0-0-0-0-0-0-0-|

G |---------------------------------|---------------------------------|
D |-----------------7-7-7-7---7-7-7-|---------------------------------|
A |-5-5-5-5-5-5-5-5-----------------|-5-5-5-5-5-5-5-5---------------2-|
E |---------------------------------|-----------------5-5-5-5---5-5---|

G |---------------------------------|---------------------------------|
D |---------------------------------|---------------------------------|
A |-3-3-3-3-3-3-3-2-----------------|-1-1-1-1-3-3-3-3-5-5-5-5-5-5-5-5-|
E |-----------------5-5-5-5-5-5-5-5-|---------------------------------|

INTERLUDE/GUITAR SOLO:
G |---------------------------------|---------------------------------|
D |---------------------------------|---------------------------------|
A |---------------------------------|-----------------5-5-5-5-5-5-5-5-|
E |-5-------------------------------|-6-6-6-6-6-6-6-6-----------------|

G |---------------------------------|---------------------------------|
D |---------------------------------|-----------------------------5-5-|
A |---------------------------------|-----------------5-5-7-7-8-8-----|
E |-5-5-5-5-5-5-5-5-5-5-5-5-5-5-5-5-|-6-6-6-6-6-6-6-6-----------------|

G |---------------------------------|---------------------------------|
D |-7-7-7-7-7-7-7-7-7-7-7-7-7-7-7-7-|-8-8-8-8-8-8-8-8-----------------|
A |---------------------------------|-----------------5-5-5-5-5-5-5-5-|
E |---------------------------------|---------------------------------|

G |---------------------------------|-----------------7-7-7-7-7-7-7---|
D |-7-7-7-7-7-7-7-7-7-7-7-7-7-7-7-7-|-8-8-8-8-8-8-8-8-----------------|
A |---------------------------------|---------------------------------|
E |---------------------------------|---------------------------------|

END CHORUS:
G |---------------------------------|---------------------------------|
D |-----------------7-7-7-7---7-7-7-|---------------------------------|
A |-5-5-5-5-5-5-5-5-----------------|-5-5-5-5-5-5-5-5---------------2-|
E |---------------------------------|-----------------5-5-5-5---5-5---|

G |---------------------------------|---------------------------------|
D |---------------------------------|---------------------------------|
A |-3-3-3-3-3-3-3-2-----------------|-1-1-1-1-1-1-1-1-3-3-3-3-3-3-----|
E |-----------------5-5-5-5-5-5-5-5-|---------------------------------|

G |---------------------------------|---------------------------------|
D |-----------------7-7-7-7---7-7-7-|---------------------------------|
A |-5-5-5-5-5-5-5-5-----------------|-5-5-5-5-5-5-------------------2-|
E |---------------------------------|-----------------5-5-5-5---5-5---|

G |---------------------------------|---------------------------------|
D |---------------------------------|---------------------------------|
A |-3-3-3-3-3-3-3-2-----------------|-1-1-1-1-3-3-3-3-5-5-5-5-5-5-5-5-|
E |-----------------5-5-5-5-5-5-5-5-|---------------------------------|

END VERSE:
G |-----------------------------------|
````|---------------------------------|-7-|
D |*---------------------------------*|
````|---------------------------------|---|
A |*---------------------------------*| x3 |---------------------------------|---|
E |--3---5---6---3---5---6---3---5----|
````|-3-------------------------------|---|

* For the end part with guitar arpeggios play a 'D'note continuously
G |---------------------------------|
D |---------------------------------|
A |-5-5-5-5-5-5-5-5-5-5-5-5-5-5-5-5-|
E |---------------------------------|